  0
SECTION
  2
HEADER
  9
$ACADVER
  1
AC1015
  9
$ACADMAINTVER
 70
     6
  9
$DWGCODEPAGE
  3
ANSI_1254
  9
$INSBASE
 10
0.0
 20
0.0
 30
0.0
  9
$EXTMIN
 10
0.0
 20
0.0
 30
0.0
  9
$EXTMAX
 10
279.4
 20
215.9
 30
0.0
  9
$LIMMIN
 10
0.0
 20
0.0
  9
$LIMMAX
 10
279.4
 20
215.9
  9
$ORTHOMODE
 70
     0
  9
$REGENMODE
 70
     1
  9
$FILLMODE
 70
     1
  9
$QTEXTMODE
 70
     0
  9
$MIRRTEXT
 70
     1
  9
$LTSCALE
 40
1.0
  9
$ATTMODE
 70
     1
  9
$TEXTSIZE
 40
3.5
  9
$TRACEWID
 40
1.0
  9
$TEXTSTYLE
  7
Standard
  9
$CLAYER
  8
0
  9
$CELTYPE
  6
ByLayer
  9
$CECOLOR
 62
   256
  9
$CELTSCALE
 40
1.0
  9
$DISPSILH
 70
     0
  9
$DIMSCALE
 40
1.0
  9
$DIMASZ
 40
3.5
  9
$DIMEXO
 40
1.0
  9
$DIMDLI
 40
3.75
  9
$DIMRND
 40
0.0
  9
$DIMDLE
 40
0.0
  9
$DIMEXE
 40
1.0
  9
$DIMTP
 40
0.0
  9
$DIMTM
 40
0.0
  9
$DIMTXT
 40
3.5
  9
$DIMCEN
 40
2.5
  9
$DIMTSZ
 40
0.0
  9
$DIMTOL
 70
     0
  9
$DIMLIM
 70
     0
  9
$DIMTIH
 70
     1
  9
$DIMTOH
 70
     1
  9
$DIMSE1
 70
     0
  9
$DIMSE2
 70
     0
  9
$DIMTAD
 70
     1
  9
$DIMZIN
 70
     0
  9
$DIMBLK
  1

  9
$DIMASO
 70
     1
  9
$DIMSHO
 70
     1
  9
$DIMPOST
  1

  9
$DIMAPOST
  1

  9
$DIMALT
 70
     0
  9
$DIMALTD
 70
     3
  9
$DIMALTF
 40
0.0393700787
  9
$DIMLFAC
 40
1.0
  9
$DIMTOFL
 70
     1
  9
$DIMTVP
 40
0.0
  9
$DIMTIX
 70
     0
  9
$DIMSOXD
 70
     0
  9
$DIMSAH
 70
     0
  9
$DIMBLK1
  1

  9
$DIMBLK2
  1

  9
$DIMSTYLE
  2
ISO-25
  9
$DIMCLRD
 70
     0
  9
$DIMCLRE
 70
     0
  9
$DIMCLRT
 70
     0
  9
$DIMTFAC
 40
1.0
  9
$DIMGAP
 40
1.524
  9
$DIMJUST
 70
     0
  9
$DIMSD1
 70
     0
  9
$DIMSD2
 70
     0
  9
$DIMTOLJ
 70
     0
  9
$DIMTZIN
 70
     0
  9
$DIMALTZ
 70
     0
  9
$DIMALTTZ
 70
     0
  9
$DIMUPT
 70
     0
  9
$DIMDEC
 70
     2
  9
$DIMTDEC
 70
     2
  9
$DIMALTU
 70
     2
  9
$DIMALTTD
 70
     3
  9
$DIMTXSTY
  7
Standard
  9
$DIMAUNIT
 70
     0
  9
$DIMADEC
 70
     2
  9
$DIMALTRND
 40
0.0
  9
$DIMAZIN
 70
     0
  9
$DIMDSEP
 70
    44
  9
$DIMATFIT
 70
     3
  9
$DIMFRAC
 70
     0
  9
$DIMLDRBLK
  1

  9
$DIMLUNIT
 70
     2
  9
$DIMLWD
 70
    -2
  9
$DIMLWE
 70
    -2
  9
$DIMTMOVE
 70
     0
  9
$LUNITS
 70
     2
  9
$LUPREC
 70
     2
  9
$SKETCHINC
 40
1.0
  9
$FILLETRAD
 40
10.0
  9
$AUNITS
 70
     0
  9
$AUPREC
 70
     2
  9
$MENU
  1
.
  9
$ELEVATION
 40
0.0
  9
$PELEVATION
 40
0.0
  9
$THICKNESS
 40
0.0
  9
$LIMCHECK
 70
     0
  9
$CHAMFERA
 40
0.0
  9
$CHAMFERB
 40
0.0
  9
$CHAMFERC
 40
0.0
  9
$CHAMFERD
 40
0.0
  9
$SKPOLY
 70
     0
  9
$TDCREATE
 40
2458985.699711505
  9
$TDUCREATE
 40
2458985.574711505
  9
$TDUPDATE
 40
2458985.699711771
  9
$TDUUPDATE
 40
2458985.574711771
  9
$TDINDWG
 40
0.0000000116
  9
$TDUSRTIMER
 40
0.0000000116
  9
$USRTIMER
 70
     1
  9
$ANGBASE
 50
0.0
  9
$ANGDIR
 70
     0
  9
$PDMODE
 70
     0
  9
$PDSIZE
 40
-1.0
  9
$PLINEWID
 40
0.0
  9
$SPLFRAME
 70
     0
  9
$SPLINETYPE
 70
     6
  9
$SPLINESEGS
 70
     8
  9
$HANDSEED
  5
F1
  9
$SURFTAB1
 70
     6
  9
$SURFTAB2
 70
     6
  9
$SURFTYPE
 70
     6
  9
$SURFU
 70
     6
  9
$SURFV
 70
     6
  9
$UCSBASE
  2

  9
$UCSNAME
  2

  9
$UCSORG
 10
0.0
 20
0.0
 30
0.0
  9
$UCSXDIR
 10
1.0
 20
0.0
 30
0.0
  9
$UCSYDIR
 10
0.0
 20
1.0
 30
0.0
  9
$UCSORTHOREF
  2

  9
$UCSORTHOVIEW
 70
     0
  9
$UCSORGTOP
 10
0.0
 20
0.0
 30
0.0
  9
$UCSORGBOTTOM
 10
0.0
 20
0.0
 30
0.0
  9
$UCSORGLEFT
 10
0.0
 20
0.0
 30
0.0
  9
$UCSORGRIGHT
 10
0.0
 20
0.0
 30
0.0
  9
$UCSORGFRONT
 10
0.0
 20
0.0
 30
0.0
  9
$UCSORGBACK
 10
0.0
 20
0.0
 30
0.0
  9
$PUCSBASE
  2

  9
$PUCSNAME
  2

  9
$PUCSORG
 10
0.0
 20
0.0
 30
0.0
  9
$PUCSXDIR
 10
1.0
 20
0.0
 30
0.0
  9
$PUCSYDIR
 10
0.0
 20
1.0
 30
0.0
  9
$PUCSORTHOREF
  2

  9
$PUCSORTHOVIEW
 70
     0
  9
$PUCSORGTOP
 10
0.0
 20
0.0
 30
0.0
  9
$PUCSORGBOTTOM
 10
0.0
 20
0.0
 30
0.0
  9
$PUCSORGLEFT
 10
0.0
 20
0.0
 30
0.0
  9
$PUCSORGRIGHT
 10
0.0
 20
0.0
 30
0.0
  9
$PUCSORGFRONT
 10
0.0
 20
0.0
 30
0.0
  9
$PUCSORGBACK
 10
0.0
 20
0.0
 30
0.0
  9
$USERI1
 70
     0
  9
$USERI2
 70
     0
  9
$USERI3
 70
     0
  9
$USERI4
 70
     0
  9
$USERI5
 70
     0
  9
$USERR1
 40
0.0
  9
$USERR2
 40
0.0
  9
$USERR3
 40
0.0
  9
$USERR4
 40
0.0
  9
$USERR5
 40
0.0
  9
$WORLDVIEW
 70
     1
  9
$SHADEDGE
 70
     3
  9
$SHADEDIF
 70
    70
  9
$TILEMODE
 70
     1
  9
$MAXACTVP
 70
    64
  9
$PINSBASE
 10
0.0
 20
0.0
 30
0.0
  9
$PLIMCHECK
 70
     0
  9
$PEXTMIN
 10
1.0000000000E+20
 20
1.0000000000E+20
 30
1.0000000000E+20
  9
$PEXTMAX
 10
-1.0000000000E+20
 20
-1.0000000000E+20
 30
-1.0000000000E+20
  9
$PLIMMIN
 10
0.0
 20
0.0
  9
$PLIMMAX
 10
420.0
 20
297.0
  9
$UNITMODE
 70
     0
  9
$VISRETAIN
 70
     1
  9
$PLINEGEN
 70
     0
  9
$PSLTSCALE
 70
     1
  9
$TREEDEPTH
 70
  3020
  9
$CMLSTYLE
  2
Standard
  9
$CMLJUST
 70
     0
  9
$CMLSCALE
 40
20.0
  9
$PROXYGRAPHICS
 70
     1
  9
$MEASUREMENT
 70
     1
  9
$CELWEIGHT
370
    -1
  9
$ENDCAPS
280
     0
  9
$JOINSTYLE
280
     0
  9
$LWDISPLAY
290
     1
  9
$INSUNITS
 70
     4
  9
$HYPERLINKBASE
  1

  9
$STYLESHEET
  1

  9
$XEDIT
290
     1
  9
$CEPSNTYPE
380
     0
  9
$PSTYLEMODE
290
     1
  9
$FINGERPRINTGUID
  2
{f5310207-0a0f-471e-8dcd-7fbbd6848f81}
  9
$VERSIONGUID
  2
{FAEB1C32-E019-11D5-929B-00C0DF256EC4}
  9
$EXTNAMES
290
     1
  9
$PSVPSCALE
 40
0.0
  9
$OLESTARTUP
290
     0
  0
ENDSEC
  0
SECTION
  2
CLASSES
  0
CLASS
  1
ACDBDICTIONARYWDFLT
  2
AcDbDictionaryWithDefault
  3
ObjectDBX Classes
 90
        0
280
     0
281
     0
  0
CLASS
  1
VISUALSTYLE
  2
AcDbVisualStyle
  3
ObjectDBX Classes
 90
     4095
280
     0
281
     0
  0
CLASS
  1
MATERIAL
  2
AcDbMaterial
  3
ObjectDBX Classes
 90
     1153
280
     0
281
     0
  0
CLASS
  1
SCALE
  2
AcDbScale
  3
ObjectDBX Classes
 90
     1153
280
     0
281
     0
  0
CLASS
  1
TABLESTYLE
  2
AcDbTableStyle
  3
ObjectDBX Classes
 90
     4095
280
     0
281
     0
  0
CLASS
  1
MLEADERSTYLE
  2
AcDbMLeaderStyle
  3
ACDB_MLEADERSTYLE_CLASS
 90
     4095
280
     0
281
     0
  0
CLASS
  1
SUN
  2
AcDbSun
  3
SCENEOE
 90
     1153
280
     0
281
     0
  0
CLASS
  1
ACDBPLACEHOLDER
  2
AcDbPlaceHolder
  3
ObjectDBX Classes
 90
        0
280
     0
281
     0
  0
CLASS
  1
LAYOUT
  2
AcDbLayout
  3
ObjectDBX Classes
 90
        0
280
     0
281
     0
  0
ENDSEC
  0
SECTION
  2
TABLES
  0
TABLE
  2
VPORT
  5
8
330
0
100
AcDbSymbolTable
 70
     1
  0
VPORT
  5
29
330
8
100
AcDbSymbolTableRecord
100
AcDbViewportTableRecord
  2
*Active
 70
     0
 10
0.0
 20
0.0
 11
1.0
 21
1.0
 12
139.7
 22
107.95
 13
0.0
 23
0.0
 14
10.0
 24
10.0
 15
10.0
 25
10.0
 16
0.0
 26
0.0
 36
1.0
 17
0.0
 27
0.0
 37
0.0
 40
215.9
 41
1.2941176471
 42
50.0
 43
0.0
 44
0.0
 50
0.0
 51
0.0
 71
     0
 72
  2000
 73
     1
 74
     3
 75
     0
 76
     0
 77
     0
 78
     0
281
     0
 65
     1
110
0.0
120
0.0
130
0.0
111
1.0
121
0.0
131
0.0
112
0.0
122
1.0
132
0.0
 79
     0
146
0.0
  0
ENDTAB
  0
TABLE
  2
LTYPE
  5
5
330
0
100
AcDbSymbolTable
 70
     6
  0
LTYPE
  5
14
330
5
100
AcDbSymbolTableRecord
100
AcDbLinetypeTableRecord
  2
ByBlock
 70
     0
  3

 72
    65
 73
     0
 40
0.0
  0
LTYPE
  5
15
330
5
100
AcDbSymbolTableRecord
100
AcDbLinetypeTableRecord
  2
ByLayer
 70
     0
  3

 72
    65
 73
     0
 40
0.0
  0
LTYPE
  5
16
330
5
100
AcDbSymbolTableRecord
100
AcDbLinetypeTableRecord
  2
Continuous
 70
     0
  3
Solid line
 72
    65
 73
     0
 40
0.0
  0
LTYPE
  5
6E
330
5
100
AcDbSymbolTableRecord
100
AcDbLinetypeTableRecord
  2
HIDDEN
 70
     0
  3
Hidden __ __ __ __ __ __ __ __ __ __ __ __ __ __
 72
    65
 73
     2
 40
1.905
 49
1.27
 74
     0
 49
-0.635
 74
     0
  0
LTYPE
  5
6F
330
5
100
AcDbSymbolTableRecord
100
AcDbLinetypeTableRecord
  2
PHANTOM
 70
     0
  3
Phantom ______  __  __  ______  __  __  ______
 72
    65
 73
     6
 40
12.7
 49
6.35
 74
     0
 49
-1.27
 74
     0
 49
1.27
 74
     0
 49
-1.27
 74
     0
 49
1.27
 74
     0
 49
-1.27
 74
     0
  0
LTYPE
  5
70
330
5
100
AcDbSymbolTableRecord
100
AcDbLinetypeTableRecord
  2
CENTER
 70
     0
  3
Center ____ _ ____ _ ____ _ ____ _ ____ _ ____
 72
    65
 73
     4
 40
10.16
 49
6.35
 74
     0
 49
-1.27
 74
     0
 49
1.27
 74
     0
 49
-1.27
 74
     0
  0
LTYPE
  5
71
330
5
100
AcDbSymbolTableRecord
100
AcDbLinetypeTableRecord
  2
CENTERX2
 70
     0
  3
Center (2x) ________  __  ________  __  _____
 72
    65
 73
     4
 40
20.32
 49
12.7
 74
     0
 49
-2.54
 74
     0
 49
2.54
 74
     0
 49
-2.54
 74
     0
  0
LTYPE
  5
72
330
5
100
AcDbSymbolTableRecord
100
AcDbLinetypeTableRecord
  2
DOT2
 70
     0
  3
Dot (.5x) ........................................
 72
    65
 73
     2
 40
0.635
 49
0.0
 74
     0
 49
-0.635
 74
     0
  0
ENDTAB
  0
TABLE
  2
LAYER
  5
2
330
0
100
AcDbSymbolTable
 70
    17
  0
LAYER
  5
10
330
2
100
AcDbSymbolTableRecord
100
AcDbLayerTableRecord
  2
0
 70
     0
 62
     7
  6
Continuous
370
    -3
390
F
  0
LAYER
  5
73
330
2
100
AcDbSymbolTableRecord
100
AcDbLayerTableRecord
  2
FORMAT
 70
     0
 62
     7
  6
Continuous
370
    -3
390
F
  0
LAYER
  5
74
330
2
100
AcDbSymbolTableRecord
100
AcDbLayerTableRecord
  2
YARDIMCI_GEOMETRI
 70
     0
 62
    -6
  6
Continuous
290
     0
370
    -3
390
F
  0
LAYER
  5
75
330
2
100
AcDbSymbolTableRecord
100
AcDbLayerTableRecord
  2
SAYFA_CERCEVESI
 70
     0
 62
     7
  6
Continuous
370
    25
390
F
  0
LAYER
  5
76
330
2
100
AcDbSymbolTableRecord
100
AcDbLayerTableRecord
  2
ANTET
 70
     0
 62
     7
  6
Continuous
370
    -3
390
F
  0
LAYER
  5
77
330
2
100
AcDbSymbolTableRecord
100
AcDbLayerTableRecord
  2
OLCU
 70
     0
 62
   150
  6
Continuous
370
    -3
390
F
  0
LAYER
  5
78
330
2
100
AcDbSymbolTableRecord
100
AcDbLayerTableRecord
  2
METIN
 70
     0
 62
    96
  6
Continuous
370
    -3
390
F
  0
LAYER
  5
79
330
2
100
AcDbSymbolTableRecord
100
AcDbLayerTableRecord
  2
BALON
 70
     0
 62
     5
  6
Continuous
370
    -3
390
F
  0
LAYER
  5
7A
330
2
100
AcDbSymbolTableRecord
100
AcDbLayerTableRecord
  2
VURGU
 70
     0
 62
     7
  6
Continuous
370
    -3
390
F
  0
LAYER
  5
7B
330
2
100
AcDbSymbolTableRecord
100
AcDbLayerTableRecord
  2
SILIK
 70
     0
 62
     7
  6
Continuous
370
    -3
390
F
  0
LAYER
  5
7C
330
2
100
AcDbSymbolTableRecord
100
AcDbLayerTableRecord
  2
MODEL
 70
     0
 62
     7
  6
Continuous
370
    -3
390
F
  0
LAYER
  5
7D
330
2
100
AcDbSymbolTableRecord
100
AcDbLayerTableRecord
  2
DETAYLANDıRMA
 70
     0
 62
   190
  6
Continuous
370
    -3
390
F
  0
LAYER
  5
7E
330
2
100
AcDbSymbolTableRecord
100
AcDbLayerTableRecord
  2
TOLERANS
 70
     0
 62
   230
  6
Continuous
370
    -3
390
F
  0
LAYER
  5
7F
330
2
100
AcDbSymbolTableRecord
100
AcDbLayerTableRecord
  2
MERKEZ_CIZGILERI
 70
     0
 62
    30
  6
Continuous
370
    -3
390
F
  0
LAYER
  5
80
330
2
100
AcDbSymbolTableRecord
100
AcDbLayerTableRecord
  2
KESIT-DETAY_CIZGILERI
 70
     0
 62
     7
  6
Continuous
370
    -3
390
F
  0
LAYER
  5
81
330
2
100
AcDbSymbolTableRecord
100
AcDbLayerTableRecord
  2
\U+041E\U+0421\U+0415\U+0412\U+042B\U+0415
 70
     0
 62
     7
  6
Continuous
370
    -3
390
F
  0
LAYER
  5
82
330
2
100
AcDbSymbolTableRecord
100
AcDbLayerTableRecord
  2
\U+0412\U+041E\U+0414\U+042F\U+041D\U+042B\U+0415_\U+0417\U+041D\U+0410\U+041A\U+0418
 70
     0
 62
    11
  6
Continuous
370
    -3
390
F
  0
ENDTAB
  0
TABLE
  2
STYLE
  5
3
330
0
100
AcDbSymbolTable
 70
     1
  0
STYLE
  5
11
330
3
100
AcDbSymbolTableRecord
100
AcDbTextStyleTableRecord
  2
Standard
 70
     0
 40
0.0
 41
1.0
 50
0.0
 71
     0
 42
3.5
  3
txt
  4

  0
ENDTAB
  0
TABLE
  2
VIEW
  5
6
330
0
100
AcDbSymbolTable
 70
     0
  0
ENDTAB
  0
TABLE
  2
UCS
  5
7
330
0
100
AcDbSymbolTable
 70
     0
  0
ENDTAB
  0
TABLE
  2
APPID
  5
9
330
0
100
AcDbSymbolTable
 70
     1
  0
APPID
  5
12
330
9
100
AcDbSymbolTableRecord
100
AcDbRegAppTableRecord
  2
ACAD
 70
     0
  0
ENDTAB
  0
TABLE
  2
DIMSTYLE
  5
A
330
0
100
AcDbSymbolTable
 70
     1
100
AcDbDimStyleTable
  0
DIMSTYLE
105
27
330
A
100
AcDbSymbolTableRecord
100
AcDbDimStyleTableRecord
  2
ISO-25
 70
     0
 41
2.5
 42
0.625
 43
3.75
 44
1.25
 73
     0
 74
     0
 77
     1
 78
     8
140
2.5
141
2.5
143
0.0393700787
147
0.625
171
     3
172
     1
178
     0
271
     2
272
     2
274
     3
278
    44
283
     0
284
     8
340
11
  0
ENDTAB
  0
TABLE
  2
BLOCK_RECORD
  5
1
330
0
100
AcDbSymbolTable
 70
     2
  0
BLOCK_RECORD
  5
1F
330
1
100
AcDbSymbolTableRecord
100
AcDbBlockTableRecord
  2
*Model_Space
340
22
  0
BLOCK_RECORD
  5
1B
330
1
100
AcDbSymbolTableRecord
100
AcDbBlockTableRecord
  2
*Paper_Space
340
1E
  0
BLOCK_RECORD
  5
23
330
1
100
AcDbSymbolTableRecord
100
AcDbBlockTableRecord
  2
*Paper_Space0
340
26
  0
BLOCK_RECORD
  5
88
330
1
100
AcDbSymbolTableRecord
100
AcDbBlockTableRecord
  2
SW_CENTERMARKSYMBOL_0
340
0
102
{BLKREFS
331
93
102
}
  0
ENDTAB
  0
ENDSEC
  0
SECTION
  2
BLOCKS
  0
BLOCK
  5
20
330
1F
100
AcDbEntity
  8
0
100
AcDbBlockBegin
  2
*Model_Space
 70
     0
 10
0.0
 20
0.0
 30
0.0
  3
*Model_Space
  1

  0
ENDBLK
  5
21
330
1F
100
AcDbEntity
  8
0
100
AcDbBlockEnd
  0
BLOCK
  5
1C
330
1B
100
AcDbEntity
 67
     1
  8
0
100
AcDbBlockBegin
  2
*Paper_Space
 70
     0
 10
0.0
 20
0.0
 30
0.0
  3
*Paper_Space
  1

  0
ENDBLK
  5
1D
330
1B
100
AcDbEntity
 67
     1
  8
0
100
AcDbBlockEnd
  0
BLOCK
  5
24
330
23
100
AcDbEntity
  8
0
100
AcDbBlockBegin
  2
*Paper_Space0
 70
     0
 10
0.0
 20
0.0
 30
0.0
  3
*Paper_Space0
  1

  0
ENDBLK
  5
25
330
23
100
AcDbEntity
  8
0
100
AcDbBlockEnd
  0
BLOCK
  5
89
330
88
100
AcDbEntity
  8
0
100
AcDbBlockBegin
  2
SW_CENTERMARKSYMBOL_0
 70
     0
 10
0.0
 20
0.0
 30
0.0
  3
SW_CENTERMARKSYMBOL_0
  1

  0
LINE
  5
8B
330
88
100
AcDbEntity
  8
FORMAT
 62
     0
100
AcDbLine
 10
0.0
 20
0.0
 30
0.0
 11
0.0
 21
2.5
 31
0.0
  0
LINE
  5
8C
330
88
100
AcDbEntity
  8
FORMAT
 62
     0
100
AcDbLine
 10
0.0
 20
0.0
 30
0.0
 11
-2.5
 21
0.0
 31
0.0
  0
LINE
  5
8D
330
88
100
AcDbEntity
  8
FORMAT
 62
     0
100
AcDbLine
 10
0.0
 20
0.0
 30
0.0
 11
0.0
 21
-2.5
 31
0.0
  0
LINE
  5
8E
330
88
100
AcDbEntity
  8
FORMAT
 62
     0
100
AcDbLine
 10
0.0
 20
0.0
 30
0.0
 11
2.5
 21
0.0
 31
0.0
  0
LINE
  5
8F
330
88
100
AcDbEntity
  8
FORMAT
 62
     0
100
AcDbLine
 10
0.0
 20
5.0
 30
0.0
 11
0.0
 21
142.5
 31
0.0
  0
LINE
  5
90
330
88
100
AcDbEntity
  8
FORMAT
 62
     0
100
AcDbLine
 10
-5.0
 20
0.0
 30
0.0
 11
-142.5
 21
0.0
 31
0.0
  0
LINE
  5
91
330
88
100
AcDbEntity
  8
FORMAT
 62
     0
100
AcDbLine
 10
0.0
 20
-5.0
 30
0.0
 11
0.0
 21
-142.5
 31
0.0
  0
LINE
  5
92
330
88
100
AcDbEntity
  8
FORMAT
 62
     0
100
AcDbLine
 10
5.0
 20
0.0
 30
0.0
 11
142.5
 21
0.0
 31
0.0
  0
ENDBLK
  5
8A
330
88
100
AcDbEntity
  8
0
100
AcDbBlockEnd
  0
ENDSEC
  0
SECTION
  2
ENTITIES
  0
CIRCLE
  5
83
330
1F
100
AcDbEntity
  8
0
  6
Continuous
 62
     7
370
    25
100
AcDbCircle
 10
139.395004093
 20
107.5851680021
 30
0.0
 40
140.0
  0
CIRCLE
  5
84
330
1F
100
AcDbEntity
  8
0
  6
Continuous
 62
     7
370
    25
100
AcDbCircle
 10
139.395004093
 20
107.5851680021
 30
0.0
 40
114.6
  0
CIRCLE
  5
85
330
1F
100
AcDbEntity
  8
0
  6
Continuous
 62
     7
370
    25
100
AcDbCircle
 10
139.395004093
 20
107.5851680021
 30
0.0
 40
114.5143609346716
  0
CIRCLE
  5
86
330
1F
100
AcDbEntity
  8
0
  6
Continuous
 62
     7
370
    25
100
AcDbCircle
 10
139.395004093
 20
107.5851680021
 30
0.0
 40
102.3856390653284
  0
CIRCLE
  5
87
330
1F
100
AcDbEntity
  8
0
  6
Continuous
 62
     7
370
    25
100
AcDbCircle
 10
139.395004093
 20
107.5851680021
 30
0.0
 40
102.3
  0
INSERT
  5
93
330
1F
100
AcDbEntity
  8
FORMAT
 62
     7
100
AcDbBlockReference
  2
SW_CENTERMARKSYMBOL_0
 10
139.395004093
 20
107.5851680021
 30
0.0
  0
ARC
  5
94
330
1F
100
AcDbEntity
  8
0
  6
Continuous
 62
     7
370
    25
100
AcDbCircle
 10
-319.3357292367
 20
245.5851680021
 30
0.0
 40
1.999999999999972
100
AcDbArc
 50
79.3803447238
 51
90.0
  0
ARC
  5
95
330
1F
100
AcDbEntity
  8
0
  6
Continuous
 62
     7
370
    25
100
AcDbCircle
 10
-319.3357292367
 20
-30.4148319979
 30
0.0
 40
1.999999999999982
100
AcDbArc
 50
270.0
 51
280.6196552762
  0
LINE
  5
96
330
1F
100
AcDbEntity
  8
0
  6
Continuous
 62
     7
370
    25
100
AcDbLine
 10
-319.3357298102
 20
247.5851685982
 30
0.0
 11
-458.149851295
 21
247.5851685982
 31
0.0
  0
LINE
  5
97
330
1F
100
AcDbEntity
  8
0
  6
Continuous
 62
     7
370
    25
100
AcDbLine
 10
-458.149851295
 20
-32.4148325939
 30
0.0
 11
-319.3357298102
 21
-32.4148325939
 31
0.0
  0
LINE
  5
98
330
1F
100
AcDbEntity
  8
0
  6
Continuous
 62
     7
370
    25
100
AcDbLine
 10
-318.9671533134
 20
-32.3805748243
 30
0.0
 11
-239.3325464752
 21
-17.4490897675
 31
0.0
  0
LINE
  5
99
330
1F
100
AcDbEntity
  8
0
  6
Continuous
 62
     7
370
    25
100
AcDbLine
 10
-239.3325464752
 20
232.6194257717
 30
0.0
 11
-318.9671533134
 21
247.5509108286
 31
0.0
  0
ARC
  5
9A
330
1F
100
AcDbEntity
  8
0
  6
Continuous
 62
     7
370
    25
100
AcDbCircle
 10
-238.9639684419
 20
234.5851680021
 30
0.0
 40
2.0
100
AcDbArc
 50
259.3803447238
 51
270.0
  0
ARC
  5
9B
330
1F
100
AcDbEntity
  8
0
  6
Continuous
 62
     7
370
    25
100
AcDbCircle
 10
-238.9639684419
 20
-19.4148319979
 30
0.0
 40
2.000000000000008
100
AcDbArc
 50
90.0
 51
100.6196552762
  0
LINE
  5
9C
330
1F
100
AcDbEntity
  8
0
  6
Continuous
 62
     7
370
    25
100
AcDbLine
 10
-110.1498464074
 20
232.5851680021
 30
0.0
 11
-238.9639699783
 21
232.5851680021
 31
0.0
  0
LINE
  5
9D
330
1F
100
AcDbEntity
  8
0
  6
Continuous
 62
     7
370
    25
100
AcDbLine
 10
-238.9639699783
 20
-17.4148319979
 30
0.0
 11
-110.1498464074
 21
-17.4148319979
 31
0.0
  0
LINE
  5
9E
330
1F
100
AcDbEntity
  8
0
  6
Continuous
 62
     7
370
    25
100
AcDbLine
 10
-458.149851295
 20
247.5851685982
 30
0.0
 11
-458.149851295
 21
-32.4148325939
 31
0.0
  0
LINE
  5
9F
330
1F
100
AcDbEntity
  8
0
  6
Continuous
 62
     7
370
    25
100
AcDbLine
 10
-110.1498464074
 20
232.5851680021
 30
0.0
 11
-110.1498464074
 21
-17.4148319979
 31
0.0
  0
LINE
  5
A0
330
1F
100
AcDbEntity
  8
0
  6
Continuous
 62
     1
370
    25
100
AcDbLine
 10
-318.9671533134
 20
247.5509108286
 30
0.0
 11
-318.9671533134
 21
-32.3805748243
 31
0.0
  0
LINE
  5
A1
330
1F
100
AcDbEntity
  8
0
  6
Continuous
 62
     1
370
    25
100
AcDbLine
 10
-319.3357298102
 20
247.5851685982
 30
0.0
 11
-319.3357298102
 21
-32.4148325939
 31
0.0
  0
LINE
  5
A2
330
1F
100
AcDbEntity
  8
0
  6
Continuous
 62
     1
370
    25
100
AcDbLine
 10
-239.3325464752
 20
232.6194257717
 30
0.0
 11
-239.3325464752
 21
-17.4490897675
 31
0.0
  0
LINE
  5
A3
330
1F
100
AcDbEntity
  8
0
  6
Continuous
 62
     1
370
    25
100
AcDbLine
 10
-238.9639699783
 20
232.5851680021
 30
0.0
 11
-238.9639699783
 21
-17.4148319979
 31
0.0
  0
ARC
  5
A4
330
1F
100
AcDbEntity
  8
0
  6
Continuous
 62
     7
370
    25
100
AcDbCircle
 10
581.2185521251
 20
-30.4148319979
 30
0.0
 40
1.999999999999982
100
AcDbArc
 50
259.3803447238
 51
270.0
  0
ARC
  5
A5
330
1F
100
AcDbEntity
  8
0
  6
Continuous
 62
     7
370
    25
100
AcDbCircle
 10
581.2185521251
 20
245.5851680021
 30
0.0
 40
1.999999999999972
100
AcDbArc
 50
90.0
 51
100.6196552762
  0
LINE
  5
A6
330
1F
100
AcDbEntity
  8
0
  6
Continuous
 62
     7
370
    25
100
AcDbLine
 10
581.2185526987
 20
-32.4148325939
 30
0.0
 11
720.0326741834
 21
-32.4148325939
 31
0.0
  0
LINE
  5
A7
330
1F
100
AcDbEntity
  8
0
  6
Continuous
 62
     7
370
    25
100
AcDbLine
 10
720.0326741834
 20
247.5851685982
 30
0.0
 11
581.2185526987
 21
247.5851685982
 31
0.0
  0
LINE
  5
A8
330
1F
100
AcDbEntity
  8
0
  6
Continuous
 62
     7
370
    25
100
AcDbLine
 10
580.8499762018
 20
247.5509108286
 30
0.0
 11
501.2153693636
 21
232.6194257717
 31
0.0
  0
LINE
  5
A9
330
1F
100
AcDbEntity
  8
0
  6
Continuous
 62
     7
370
    25
100
AcDbLine
 10
501.2153693636
 20
-17.4490897675
 30
0.0
 11
580.8499762018
 21
-32.3805748243
 31
0.0
  0
ARC
  5
AA
330
1F
100
AcDbEntity
  8
0
  6
Continuous
 62
     7
370
    25
100
AcDbCircle
 10
500.8467913303
 20
-19.4148319979
 30
0.0
 40
2.000000000000014
100
AcDbArc
 50
79.3803447238
 51
90.0
  0
ARC
  5
AB
330
1F
100
AcDbEntity
  8
0
  6
Continuous
 62
     7
370
    25
100
AcDbCircle
 10
500.8467913303
 20
234.5851680021
 30
0.0
 40
2.0
100
AcDbArc
 50
270.0
 51
280.6196552762
  0
LINE
  5
AC
330
1F
100
AcDbEntity
  8
0
  6
Continuous
 62
     7
370
    25
100
AcDbLine
 10
372.0326692959
 20
-17.4148319979
 30
0.0
 11
500.8467928668
 21
-17.4148319979
 31
0.0
  0
LINE
  5
AD
330
1F
100
AcDbEntity
  8
0
  6
Continuous
 62
     7
370
    25
100
AcDbLine
 10
500.8467928668
 20
232.5851680021
 30
0.0
 11
372.0326692959
 21
232.5851680021
 31
0.0
  0
LINE
  5
AE
330
1F
100
AcDbEntity
  8
0
  6
Continuous
 62
     7
370
    25
100
AcDbLine
 10
720.0326741834
 20
107.5851680021
 30
0.0
 11
720.0326741834
 21
247.5851685982
 31
0.0
  0
LINE
  5
AF
330
1F
100
AcDbEntity
  8
0
  6
Continuous
 62
     7
370
    25
100
AcDbLine
 10
720.0326741834
 20
-32.4148325939
 30
0.0
 11
720.0326741834
 21
107.5851680021
 31
0.0
  0
LINE
  5
B0
330
1F
100
AcDbEntity
  8
0
  6
Continuous
 62
     7
370
    25
100
AcDbLine
 10
372.0326692959
 20
107.5851680021
 30
0.0
 11
372.0326692959
 21
232.5851680021
 31
0.0
  0
LINE
  5
B1
330
1F
100
AcDbEntity
  8
0
  6
Continuous
 62
     7
370
    25
100
AcDbLine
 10
372.0326692959
 20
-17.4148319979
 30
0.0
 11
372.0326692959
 21
107.5851680021
 31
0.0
  0
LINE
  5
B2
330
1F
100
AcDbEntity
  8
0
  6
Continuous
 62
     1
370
    25
100
AcDbLine
 10
580.8499762018
 20
107.5851680021
 30
0.0
 11
580.8499762018
 21
247.5509108286
 31
0.0
  0
LINE
  5
B3
330
1F
100
AcDbEntity
  8
0
  6
Continuous
 62
     1
370
    25
100
AcDbLine
 10
580.8499762018
 20
-32.3805748243
 30
0.0
 11
580.8499762018
 21
107.5851680021
 31
0.0
  0
LINE
  5
B4
330
1F
100
AcDbEntity
  8
0
  6
Continuous
 62
     1
370
    25
100
AcDbLine
 10
581.2185526987
 20
107.5851680021
 30
0.0
 11
581.2185526987
 21
247.5851685982
 31
0.0
  0
LINE
  5
B5
330
1F
100
AcDbEntity
  8
0
  6
Continuous
 62
     1
370
    25
100
AcDbLine
 10
581.2185526987
 20
-32.4148325939
 30
0.0
 11
581.2185526987
 21
107.5851680021
 31
0.0
  0
LINE
  5
B6
330
1F
100
AcDbEntity
  8
0
  6
Continuous
 62
     1
370
    25
100
AcDbLine
 10
501.2153693636
 20
107.5851680021
 30
0.0
 11
501.2153693636
 21
232.6194257717
 31
0.0
  0
LINE
  5
B7
330
1F
100
AcDbEntity
  8
0
  6
Continuous
 62
     1
370
    25
100
AcDbLine
 10
501.2153693636
 20
-17.4490897675
 30
0.0
 11
501.2153693636
 21
107.5851680021
 31
0.0
  0
LINE
  5
B8
330
1F
100
AcDbEntity
  8
0
  6
Continuous
 62
     1
370
    25
100
AcDbLine
 10
500.8467928668
 20
107.5851680021
 30
0.0
 11
500.8467928668
 21
232.5851680021
 31
0.0
  0
LINE
  5
B9
330
1F
100
AcDbEntity
  8
0
  6
Continuous
 62
     1
370
    25
100
AcDbLine
 10
500.8467928668
 20
-17.4148319979
 30
0.0
 11
500.8467928668
 21
107.5851680021
 31
0.0
  0
ARC
  5
BA
330
1F
100
AcDbEntity
  8
0
  6
Continuous
 62
     7
370
    25
100
AcDbCircle
 10
277.395004093
 20
524.3072624586
 30
0.0
 40
1.999999999999943
100
AcDbArc
 50
349.3803447238
 51
0.0
  0
ARC
  5
BB
330
1F
100
AcDbEntity
  8
0
  6
Continuous
 62
     7
370
    25
100
AcDbCircle
 10
1.395004093
 20
524.3072624586
 30
0.0
 40
1.999999999999984
100
AcDbArc
 50
180.0
 51
190.6196552762
  0
LINE
  5
BC
330
1F
100
AcDbEntity
  8
0
  6
Continuous
 62
     7
370
    25
100
AcDbLine
 10
279.3950046891
 20
524.3072630321
 30
0.0
 11
279.3950046891
 21
663.1213845169
 31
0.0
  0
LINE
  5
BD
330
1F
100
AcDbEntity
  8
0
  6
Continuous
 62
     7
370
    25
100
AcDbLine
 10
-0.604996503
 20
663.1213845169
 30
0.0
 11
-0.604996503
 21
524.3072630321
 31
0.0
  0
LINE
  5
BE
330
1F
100
AcDbEntity
  8
0
  6
Continuous
 62
     7
370
    25
100
AcDbLine
 10
-0.5707387334
 20
523.9386865353
 30
0.0
 11
14.3607463235
 21
444.3040796971
 31
0.0
  0
LINE
  5
BF
330
1F
100
AcDbEntity
  8
0
  6
Continuous
 62
     7
370
    25
100
AcDbLine
 10
264.4292618626
 20
444.3040796971
 30
0.0
 11
279.3607469195
 21
523.9386865353
 31
0.0
  0
ARC
  5
C0
330
1F
100
AcDbEntity
  8
0
  6
Continuous
 62
     7
370
    25
100
AcDbCircle
 10
266.395004093
 20
443.9355016638
 30
0.0
 40
2.0
100
AcDbArc
 50
169.3803447238
 51
180.0
  0
ARC
  5
C1
330
1F
100
AcDbEntity
  8
0
  6
Continuous
 62
     7
370
    25
100
AcDbCircle
 10
12.395004093
 20
443.9355016638
 30
0.0
 40
2.000000000000002
100
AcDbArc
 50
0.0
 51
10.6196552762
  0
LINE
  5
C2
330
1F
100
AcDbEntity
  8
0
  6
Continuous
 62
     7
370
    25
100
AcDbLine
 10
264.395004093
 20
315.1213796293
 30
0.0
 11
264.395004093
 21
443.9355032002
 31
0.0
  0
LINE
  5
C3
330
1F
100
AcDbEntity
  8
0
  6
Continuous
 62
     7
370
    25
100
AcDbLine
 10
14.395004093
 20
443.9355032002
 30
0.0
 11
14.395004093
 21
315.1213796293
 31
0.0
  0
LINE
  5
C4
330
1F
100
AcDbEntity
  8
0
  6
Continuous
 62
     7
370
    25
100
AcDbLine
 10
279.3950046891
 20
663.1213845169
 30
0.0
 11
-0.604996503
 21
663.1213845169
 31
0.0
  0
LINE
  5
C5
330
1F
100
AcDbEntity
  8
0
  6
Continuous
 62
     7
370
    25
100
AcDbLine
 10
264.395004093
 20
315.1213796293
 30
0.0
 11
14.395004093
 21
315.1213796293
 31
0.0
  0
LINE
  5
C6
330
1F
100
AcDbEntity
  8
0
  6
Continuous
 62
     1
370
    25
100
AcDbLine
 10
279.3607469195
 20
523.9386865353
 30
0.0
 11
-0.5707387334
 21
523.9386865353
 31
0.0
  0
LINE
  5
C7
330
1F
100
AcDbEntity
  8
0
  6
Continuous
 62
     1
370
    25
100
AcDbLine
 10
279.3950046891
 20
524.3072630321
 30
0.0
 11
-0.604996503
 21
524.3072630321
 31
0.0
  0
LINE
  5
C8
330
1F
100
AcDbEntity
  8
0
  6
Continuous
 62
     1
370
    25
100
AcDbLine
 10
264.4292618626
 20
444.3040796971
 30
0.0
 11
14.3607463235
 21
444.3040796971
 31
0.0
  0
LINE
  5
C9
330
1F
100
AcDbEntity
  8
0
  6
Continuous
 62
     1
370
    25
100
AcDbLine
 10
264.395004093
 20
443.9355032002
 30
0.0
 11
14.395004093
 21
443.9355032002
 31
0.0
  0
ARC
  5
CA
330
1F
100
AcDbEntity
  8
0
  6
Continuous
 62
     7
370
    25
100
AcDbCircle
 10
1.395004093
 20
-352.1763957414
 30
0.0
 40
1.999999999999994
100
AcDbArc
 50
169.3803447238
 51
180.0
  0
ARC
  5
CB
330
1F
100
AcDbEntity
  8
0
  6
Continuous
 62
     7
370
    25
100
AcDbCircle
 10
277.395004093
 20
-352.1763957414
 30
0.0
 40
1.999999999999948
100
AcDbArc
 50
0.0
 51
10.6196552762
  0
LINE
  5
CC
330
1F
100
AcDbEntity
  8
0
  6
Continuous
 62
     7
370
    25
100
AcDbLine
 10
-0.604996503
 20
-352.1763963149
 30
0.0
 11
-0.604996503
 21
-490.9905177997
 31
0.0
  0
LINE
  5
CD
330
1F
100
AcDbEntity
  8
0
  6
Continuous
 62
     7
370
    25
100
AcDbLine
 10
279.3950046891
 20
-490.9905177997
 30
0.0
 11
279.3950046891
 21
-352.1763963149
 31
0.0
  0
LINE
  5
CE
330
1F
100
AcDbEntity
  8
0
  6
Continuous
 62
     7
370
    25
100
AcDbLine
 10
279.3607469195
 20
-351.8078198181
 30
0.0
 11
264.4292618626
 21
-272.1732129799
 31
0.0
  0
LINE
  5
CF
330
1F
100
AcDbEntity
  8
0
  6
Continuous
 62
     7
370
    25
100
AcDbLine
 10
14.3607463235
 20
-272.1732129799
 30
0.0
 11
-0.5707387334
 21
-351.8078198181
 31
0.0
  0
ARC
  5
D0
330
1F
100
AcDbEntity
  8
0
  6
Continuous
 62
     7
370
    25
100
AcDbCircle
 10
12.395004093
 20
-271.8046349466
 30
0.0
 40
2.000000000000012
100
AcDbArc
 50
349.3803447238
 51
0.0
  0
ARC
  5
D1
330
1F
100
AcDbEntity
  8
0
  6
Continuous
 62
     7
370
    25
100
AcDbCircle
 10
266.395004093
 20
-271.8046349466
 30
0.0
 40
2.0
100
AcDbArc
 50
180.0
 51
190.6196552762
  0
LINE
  5
D2
330
1F
100
AcDbEntity
  8
0
  6
Continuous
 62
     7
370
    25
100
AcDbLine
 10
14.395004093
 20
-142.9905129121
 30
0.0
 11
14.395004093
 21
-271.804636483
 31
0.0
  0
LINE
  5
D3
330
1F
100
AcDbEntity
  8
0
  6
Continuous
 62
     7
370
    25
100
AcDbLine
 10
264.395004093
 20
-271.804636483
 30
0.0
 11
264.395004093
 21
-142.9905129121
 31
0.0
  0
LINE
  5
D4
330
1F
100
AcDbEntity
  8
0
  6
Continuous
 62
     7
370
    25
100
AcDbLine
 10
-0.604996503
 20
-490.9905177997
 30
0.0
 11
279.3950046891
 21
-490.9905177997
 31
0.0
  0
LINE
  5
D5
330
1F
100
AcDbEntity
  8
0
  6
Continuous
 62
     7
370
    25
100
AcDbLine
 10
14.395004093
 20
-142.9905129121
 30
0.0
 11
264.395004093
 21
-142.9905129121
 31
0.0
  0
LINE
  5
D6
330
1F
100
AcDbEntity
  8
0
  6
Continuous
 62
     1
370
    25
100
AcDbLine
 10
-0.5707387334
 20
-351.8078198181
 30
0.0
 11
279.3607469195
 21
-351.8078198181
 31
0.0
  0
LINE
  5
D7
330
1F
100
AcDbEntity
  8
0
  6
Continuous
 62
     1
370
    25
100
AcDbLine
 10
-0.604996503
 20
-352.1763963149
 30
0.0
 11
279.3950046891
 21
-352.1763963149
 31
0.0
  0
LINE
  5
D8
330
1F
100
AcDbEntity
  8
0
  6
Continuous
 62
     1
370
    25
100
AcDbLine
 10
14.3607463235
 20
-272.1732129799
 30
0.0
 11
264.4292618626
 21
-272.1732129799
 31
0.0
  0
LINE
  5
D9
330
1F
100
AcDbEntity
  8
0
  6
Continuous
 62
     1
370
    25
100
AcDbLine
 10
14.395004093
 20
-271.804636483
 30
0.0
 11
264.395004093
 21
-271.804636483
 31
0.0
  0
LINE
  5
DA
330
1F
100
AcDbEntity
  8
0
  6
Continuous
 62
     7
370
    25
100
AcDbLine
 10
672.8210737451
 20
-187.4212911748
 30
0.0
 11
574.6646671188
 21
-130.756803767
 31
0.0
  0
LINE
  5
DB
330
1F
100
AcDbEntity
  8
0
  6
Continuous
 62
     7
370
    25
100
AcDbLine
 10
434.6760487424
 20
-373.2504841621
 30
0.0
 11
532.8324553688
 21
-429.91497157
 31
0.0
  0
LINE
  5
DC
330
1F
100
AcDbEntity
  8
0
  6
Continuous
 62
     7
370
    25
100
AcDbLine
 10
543.0080770061
 20
-434.3227127759
 30
0.0
 11
605.7274871614
 21
-453.4411534769
 31
0.0
  0
LINE
  5
DD
330
1F
100
AcDbEntity
  8
0
  6
Continuous
 62
     7
370
    25
100
AcDbLine
 10
729.6476827633
 20
-238.7818151597
 30
0.0
 11
681.7267265431
 21
-194.0289323599
 31
0.0
  0
LINE
  5
DE
330
1F
100
AcDbEntity
  8
0
  6
Continuous
 62
     7
370
    25
100
AcDbLine
 10
813.2384414747
 20
-285.8025512927
 30
0.0
 11
726.1839177754
 21
-235.5470444796
 31
0.0
  0
LINE
  5
DF
330
1F
100
AcDbEntity
  8
0
  6
Continuous
 62
     7
370
    25
100
AcDbLine
 10
601.1940773052
 20
-452.0592567279
 30
0.0
 11
688.2486010045
 21
-502.314763541
 31
0.0
  0
LWPOLYLINE
  5
E0
330
1F
100
AcDbEntity
  8
0
  6
Continuous
 62
     7
370
    25
100
AcDbPolyline
 90
      126
 70
   128
 43
0.0
 10
405.6754081431
 20
-309.1522120354
 10
405.8004473059
 20
-303.3363134632
 10
406.1752276195
 20
-297.3907512649
 10
406.7988323901
 20
-291.3305273862
 10
407.6696600373
 20
-285.1709661447
 10
408.7855189251
 20
-278.9276203219
 10
410.1435957512
 20
-272.6162616541
 10
411.7404450109
 20
-266.2528397667
 10
413.5720522168
 20
-259.8534152593
 10
415.6337812155
 20
-253.4341642636
 10
417.920421603
 20
-247.0112993593
 10
420.4262045293
 20
-240.6010482833
 10
423.1447921621
 20
-234.2195961331
 10
426.0693198334
 20
-227.8830732034
 10
429.192401308
 20
-221.6074789404
 10
432.5061445886
 20
-215.4086667338
 10
436.0021835258
 20
-209.3022952506
 10
439.6716830863
 20
-203.3037949746
 10
443.5053762319
 20
-197.4283104153
 10
447.4935797242
 20
-191.6906909835
 10
451.6262099296
 20
-186.1054271137
 10
455.8928407715
 20
-180.686628977
 10
460.2826826566
 20
-175.4479778095
 10
464.7846562322
 20
-170.4027259187
 10
469.3873818492
 20
-165.5635871764
 10
474.079237514
 20
-160.9428191539
 10
478.8483667915
 20
-156.5520725511
 10
483.6827249024
 20
-152.402437589
 10
488.5700997975
 20
-148.5044196771
 10
493.4981464014
 20
-144.8678344724
 10
498.4544136132
 20
-141.501889632
 10
503.4263834894
 20
-138.4150891884
 10
508.4014956108
 20
-135.6152194832
 10
513.3671829724
 20
-133.1093527829
 10
518.31090096
 20
-130.9038183836
 10
523.2201619232
 20
-129.0042069874
 10
528.0825634935
 20
-127.4152935176
 10
532.8858264499
 20
-126.1411004314
 10
537.6178111829
 20
-125.1848517126
 10
542.266569061
 20
-124.5489553865
 10
546.8203569185
 20
-124.2350194908
 10
551.2676712999
 20
-124.2438383902
 10
555.5972748018
 20
-124.5753897373
 10
559.798230317
 20
-125.2288390385
 10
563.8599326447
 20
-126.2025274896
 10
567.772113759
 20
-127.4940054365
 10
571.5248954922
 20
-129.1000019621
 10
575.1087948034
 20
-131.0164644301
 10
578.5147659252
 20
-133.2385524059
 10
581.7341950956
 20
-135.7606528651
 10
584.758953241
 20
-138.576392366
 10
587.5814012452
 20
-141.6786583428
 10
590.1944110225
 20
-145.059611275
 10
592.5913813227
 20
-148.7107181498
 10
594.7662535362
 20
-152.6227494209
 10
596.7135327678
 20
-156.7858276807
 10
598.4283089097
 20
-161.1894337457
 10
599.9062408362
 20
-165.8224431575
 10
601.1435985515
 20
-170.6731566049
 10
602.137252652
 20
-175.7293166534
 10
602.884705937
 20
-180.978150334
 10
603.3840512614
 20
-186.4064041204
 10
603.6340452933
 20
-192.0003585752
 10
603.6340452933
 20
-197.7458880396
 10
603.3840512614
 20
-203.6284794598
 10
602.884705937
 20
-209.633265086
 10
602.137252652
 20
-215.7450899601
 10
601.1435985515
 20
-221.9484986131
 10
599.9062408362
 20
-228.2278348695
 10
598.4283089097
 20
-234.5672281624
 10
596.7135327678
 20
-240.9506726187
 10
594.7662535362
 20
-247.3620316233
 10
592.5913813227
 20
-253.7851169029
 10
590.1944110225
 20
-260.2037067787
 10
587.5814012452
 20
-266.6015765829
 10
584.758953241
 20
-272.9625716613
 10
581.7341950956
 20
-279.270622581
 10
578.5147659252
 20
-285.5097968402
 10
575.1087948034
 20
-291.6643353688
 10
571.5248954922
 20
-297.7186799042
 10
567.772113759
 20
-303.6575459911
 10
563.8599326447
 20
-309.4659321075
 10
559.798230317
 20
-315.1291622465
 10
555.5972748018
 20
-320.6329315435
 10
551.2676712999
 20
-325.9633366903
 10
546.8203569185
 20
-331.1069154781
 10
542.266569061
 20
-336.0506711295
 10
537.6178111829
 20
-340.7821164024
 10
532.8858264499
 20
-345.2893009639
 10
528.0825634935
 20
-349.5608372429
 10
523.2201619232
 20
-353.5859331287
 10
518.31090096
 20
-357.3544337915
 10
513.3671829724
 20
-360.8567946847
 10
508.4014956108
 20
-364.0841885762
 10
503.4263834894
 20
-367.0284610589
 10
498.4544136132
 20
-369.6821748441
 10
493.4981464014
 20
-372.038614322
 10
488.5700997975
 20
-374.0918306153
 10
483.6827249024
 20
-375.836655646
 10
478.8483667915
 20
-377.2686517504
 10
474.079237514
 20
-378.384224606
 10
469.3873818492
 20
-379.1805578279
 10
464.7846562322
 20
-379.6556129672
 10
460.2826826566
 20
-379.8082291271
 10
455.8928407715
 20
-379.6379815161
 10
451.6262099296
 20
-379.1453304935
 10
447.4935797242
 20
-378.3314998961
 10
443.5053762319
 20
-377.1985622029
 10
439.6716830863
 20
-375.7493655334
 10
436.0021835258
 20
-373.987579269
 10
432.5061445886
 20
-371.9176484246
 10
429.192401308
 20
-369.5448027718
 10
426.0693198334
 20
-366.8750416271
 10
423.1447921621
 20
-363.915106474
 10
420.4262045293
 20
-360.6724687931
 10
417.920421603
 20
-357.1553331021
 10
415.6337812155
 20
-353.3725669931
 10
413.5720522168
 20
-349.3337376306
 10
411.7404450109
 20
-345.0490417899
 10
410.1435957512
 20
-340.5293028138
 10
408.7855189251
 20
-335.7859462736
 10
407.6696600373
 20
-330.8309436995
 10
406.7988323901
 20
-325.6768186581
 10
406.1752276195
 20
-320.3365935219
 10
405.8004473059
 20
-314.8237434632
 10
405.6754081431
 20
-309.1522120354
  0
LWPOLYLINE
  5
E1
330
1F
100
AcDbEntity
  8
0
  6
Continuous
 62
     7
370
    25
100
AcDbPolyline
 90
      114
 70
   128
 43
0.0
 10
423.635918851
 20
-298.7838299009
 10
423.7611582114
 20
-293.5110904466
 10
424.1364811657
 20
-288.1100547106
 10
424.7607286757
 20
-282.5974174063
 10
425.6319725231
 20
-276.990215383
 10
426.7475153095
 20
-271.3057838998
 10
428.1039220668
 20
-265.5616847644
 10
429.6969833784
 20
-259.7756850367
 10
431.5217891366
 20
-253.9656581759
 10
433.5726863953
 20
-248.1495718687
 10
435.8433478588
 20
-242.3453937385
 10
438.3267455402
 20
-236.5710670084
 10
441.0152139814
 20
-230.8444466276
 10
443.9004291797
 20
-225.1832232239
 10
446.9734876136
 20
-219.6049048594
 10
450.2248799002
 20
-214.1267227309
 10
453.6445592845
 20
-208.7656220508
 10
457.2219574443
 20
-203.5381677511
 10
460.9460161003
 20
-198.4605140677
 10
464.8052238943
 20
-193.5483589164
 10
468.7876532683
 20
-188.8168921848
 10
472.8809947084
 20
-184.2807272937
 10
477.0725936232
 20
-179.9538859913
 10
481.3494977594
 20
-175.8497527301
 10
485.6984822262
 20
-171.9810054671
 10
490.1061100814
 20
-168.3595989388
 10
494.5587540635
 20
-164.9967338653
 10
499.042652568
 20
-161.9028063841
 10
503.5439464434
 20
-159.0873685574
 10
508.0487218789
 20
-156.5591340318
 10
512.5430546919
 20
-154.3259159701
 10
517.0130532974
 20
-152.3946083282
 10
521.4449024196
 20
-150.7711910406
 10
525.8249016986
 20
-149.4606712304
 10
530.1395140933
 20
-148.4671100201
 10
534.3754014434
 20
-147.7935776678
 10
538.519471884
 20
-147.4421444459
 10
542.5589180415
 20
-147.4139133449
 10
546.481253912
 20
-147.7089561974
 10
550.2743543742
 20
-148.3263699569
 10
553.9264894331
 20
-149.2642508444
 10
557.4263848069
 20
-150.5196837084
 10
560.7632087554
 20
-152.0888043809
 10
563.9266563743
 20
-153.9667510161
 10
566.9069443262
 20
-156.1477279689
 10
569.6948635247
 20
-158.6249875484
 10
572.2817949395
 20
-161.3908756473
 10
574.6597464743
 20
-164.4368408708
 10
576.8213582356
 20
-167.7534771235
 10
578.7599604848
 20
-171.3305175303
 10
580.4695578326
 20
-175.1569165657
 10
581.9448608495
 20
-179.2208470145
 10
583.1813124076
 20
-183.5097425603
 10
584.1750929486
 20
-188.0103479764
 10
584.9231257527
 20
-192.7087556289
 10
585.4231032798
 20
-197.5904404599
 10
585.6734819018
 20
-202.6403103683
 10
585.6734819018
 20
-207.8427613427
 10
585.4231032798
 20
-213.1817122546
 10
584.9231257527
 20
-218.6406588512
 10
584.1750929486
 20
-224.2027267957
 10
583.1813124076
 20
-229.8507268015
 10
581.9448608495
 20
-235.5671989294
 10
580.4695578326
 20
-241.3344779848
 10
578.7599604848
 20
-247.1347361032
 10
576.8213582356
 20
-252.9500390241
 10
574.6597464743
 20
-258.762419093
 10
572.2817949395
 20
-264.5539087185
 10
569.6948635247
 20
-270.3066042529
 10
566.9069443262
 20
-276.0027268236
 10
563.9266563743
 20
-281.6246710026
 10
560.7632087554
 20
-287.1550565142
 10
557.4263848069
 20
-292.5767921125
 10
553.9264894331
 20
-297.8731181621
 10
550.2743543742
 20
-303.0276644345
 10
546.481253912
 20
-308.024498769
 10
542.5589180415
 20
-312.848174223
 10
538.519471884
 20
-317.4837883827
 10
534.3754014434
 20
-321.9169970475
 10
530.1395140933
 20
-326.1341161292
 10
525.8249016986
 20
-330.1221003547
 10
521.4449024196
 20
-333.8686200698
 10
517.0130532974
 20
-337.3621068624
 10
512.5430546919
 20
-340.5917497566
 10
508.0487218789
 20
-343.5475779087
 10
503.5439464434
 20
-346.2204463924
 10
499.042652568
 20
-348.6020918512
 10
494.5587540635
 20
-350.6851633878
 10
490.1061100814
 20
-352.4632116286
 10
485.6984822262
 20
-353.9307439009
 10
481.3494977594
 20
-355.0832272232
 10
477.0725936232
 20
-355.9171023693
 10
472.8809947084
 20
-356.4297781619
 10
468.7876532683
 20
-356.6196847002
 10
464.8052238943
 20
-356.4862330523
 10
460.9460161003
 20
-356.0298243769
 10
457.2219574443
 20
-355.2518772958
 10
453.6445592845
 20
-354.1547989938
 10
450.2248799002
 20
-352.7419760894
 10
446.9734876136
 20
-351.0177715894
 10
443.9004291797
 20
-348.9875309696
 10
441.0152139814
 20
-346.6575061274
 10
438.3267455402
 20
-344.0349253375
 10
435.8433478588
 20
-341.1278685387
 10
433.5726863953
 20
-337.9453403309
 10
431.5217891366
 20
-334.497169596
 10
429.6969833784
 20
-330.7940186175
 10
428.1039220668
 20
-326.8473283295
 10
426.7475153095
 20
-322.6693031012
 10
425.6319725231
 20
-318.2728499038
 10
424.7607286757
 20
-313.6715646151
 10
424.1364811657
 20
-308.8796681444
 10
423.7611582114
 20
-303.9119710677
 10
423.635918851
 20
-298.7838299009
  0
ARC
  5
E2
330
1F
100
AcDbEntity
  8
0
  6
Continuous
 62
     7
370
    25
100
AcDbCircle
 10
649.1387283352
 20
-228.3843395495
 30
0.0
 40
47.31622149186567
100
AcDbArc
 50
47.6237753112
 51
59.9661083167
  0
ARC
  5
E3
330
1F
100
AcDbEntity
  8
0
  6
Continuous
 62
     7
370
    25
100
AcDbCircle
 10
556.4843418143
 20
-388.8704823935
 30
0.0
 40
47.37152967964745
100
AcDbArc
 50
240.0473035752
 51
252.1825592063
  0
ARC
  5
E4
330
1F
100
AcDbEntity
  8
0
  6
Continuous
 62
     7
370
    25
100
AcDbCircle
 10
646.7021148824
 20
-231.6153906422
 30
0.0
 40
51.36282706359803
100
AcDbArc
 50
33.6277468675
 51
53.3073189673
  0
ARC
  5
E5
330
1F
100
AcDbEntity
  8
0
  6
Continuous
 62
     7
370
    25
100
AcDbCircle
 10
557.9774481658
 20
-385.4671273121
 30
0.0
 40
51.08818971009136
100
AcDbArc
 50
246.6439049862
 51
266.4565339308
  0
ARC
  5
E6
330
1F
100
AcDbEntity
  8
0
  6
Continuous
 62
     7
370
    25
100
AcDbCircle
 10
698.2017616836
 20
-272.3725729825
 30
0.0
 40
46.01287823700928
100
AcDbArc
 50
36.3583175342
 51
46.8888659788
  0
ARC
  5
E7
330
1F
100
AcDbEntity
  8
0
  6
Continuous
 62
     7
370
    25
100
AcDbCircle
 10
619.1765621795
 20
-408.9958161561
 30
0.0
 40
46.43560733317617
100
AcDbArc
 50
253.164284191
 51
263.6337511737
  0
LINE
  5
E8
330
1F
100
AcDbEntity
  8
0
  6
Continuous
 62
     7
370
    25
100
AcDbLine
 10
728.6022538936
 20
-237.8055030053
 30
0.0
 11
728.8263802972
 21
-238.0000747782
 31
0.0
  0
LINE
  5
E9
330
1F
100
AcDbEntity
  8
0
  6
Continuous
 62
     7
370
    25
100
AcDbLine
 10
605.0607740673
 20
-453.2620640237
 30
0.0
 11
604.3592187005
 21
-453.0240706489
 31
0.0
  0
LWPOLYLINE
  5
EA
330
1F
100
AcDbEntity
  8
0
  6
Continuous
 62
     7
370
    25
100
AcDbPolyline
 90
       61
 70
   128
 43
0.0
 10
813.2384414747
 20
-285.8025512927
 10
815.6889962244
 20
-287.332771736
 10
818.7878748713
 20
-289.6334323408
 10
821.6938790027
 20
-292.2301017581
 10
824.3987636414
 20
-295.1154148918
 10
826.8948633292
 20
-298.2811914836
 10
829.1751026641
 20
-301.7184634912
 10
831.2330226414
 20
-305.4174811744
 10
833.0627859226
 20
-309.3677617647
 10
834.6592084454
 20
-313.5581046785
 10
836.0177594236
 20
-317.9766401857
 10
837.1345929573
 20
-322.610835497
 10
838.006537496
 20
-327.4475601625
 10
838.6311327175
 20
-332.4730982426
 10
839.0065979174
 20
-337.6732080016
 10
839.1318688879
 20
-343.0331504279
 10
839.0065979174
 20
-348.5377276381
 10
838.6311327175
 20
-354.1713402896
 10
838.006537496
 20
-359.9180206626
 10
837.1345929573
 20
-365.7614710637
 10
836.0177594236
 20
-371.6851349258
 10
834.6592084454
 20
-377.6722200048
 10
833.0627859226
 20
-383.7057531301
 10
831.2330226414
 20
-389.768633437
 10
829.1751026641
 20
-395.8436749509
 10
826.8948633292
 20
-401.9136552557
 10
824.3987636414
 20
-407.9613672034
 10
821.6938790027
 20
-413.9696736661
 10
818.7878748713
 20
-419.9215440361
 10
815.6889962244
 20
-425.8000937691
 10
812.4060201432
 20
-431.5886725932
 10
808.9482558129
 20
-437.2708705927
 10
805.3255023757
 20
-442.8305790413
 10
801.548033126
 20
-448.2520360279
 10
797.6265480949
 20
-453.5198842483
 10
793.5721714163
 20
-458.6191725247
 10
789.3963933748
 20
-463.5354622659
 10
785.111046698
 20
-468.2548107348
 10
780.7282828492
 20
-472.7638455711
 10
776.260524612
 20
-477.0497739128
 10
771.7204357974
 20
-481.1004607208
 10
767.120885682
 20
-484.90441889
 10
762.4749108131
 20
-488.4508617169
 10
757.7956833977
 20
-491.7297393995
 10
753.0964652052
 20
-494.7317595652
 10
748.390577274
 20
-497.4484108423
 10
743.6913590815
 20
-499.8719925144
 10
739.0121316661
 20
-501.9956358098
 10
734.3661567971
 20
-503.8133213879
 10
729.7666066818
 20
-505.3198907442
 10
725.2265178672
 20
-506.5110789051
 10
720.75875963
 20
-507.3835144252
 10
716.3759957812
 20
-507.9347110186
 10
712.0906491044
 20
-508.1631185068
 10
707.9148710629
 20
-508.0680794691
 10
703.8604943843
 20
-507.6498748662
 10
699.9390093532
 20
-506.909676889
 10
696.1615401035
 20
-505.8495930636
 10
692.5387866663
 20
-504.4726267014
 10
689.081022336
 20
-502.7826784203
 10
688.2486010045
 20
-502.314763541
  0
LWPOLYLINE
  5
EB
330
1F
100
AcDbEntity
  8
0
  6
Continuous
 62
     1
370
    25
100
AcDbPolyline
 90
       59
 70
   128
 43
0.0
 10
681.0296677181
 20
-193.4301866984
 10
682.9153598673
 20
-195.2408797739
 10
685.7378078716
 20
-198.3431457506
 10
688.3508176488
 20
-201.7240986829
 10
690.747787949
 20
-205.3752055576
 10
692.9226601626
 20
-209.2872368287
 10
694.8699393942
 20
-213.4503150885
 10
696.584715536
 20
-217.8539211536
 10
698.0626474626
 20
-222.4869305653
 10
699.3000051779
 20
-227.3376440128
 10
700.2936592784
 20
-232.3938040613
 10
701.0411125633
 20
-237.6426377419
 10
701.5404578877
 20
-243.0708915283
 10
701.7904519197
 20
-248.664845983
 10
701.7904519197
 20
-254.4103754475
 10
701.5404578877
 20
-260.2929668676
 10
701.0411125633
 20
-266.2977524938
 10
700.2936592784
 20
-272.4095773679
 10
699.3000051779
 20
-278.612986021
 10
698.0626474626
 20
-284.8923222774
 10
696.584715536
 20
-291.2317155702
 10
694.8699393942
 20
-297.6151600265
 10
692.9226601626
 20
-304.0265190311
 10
690.747787949
 20
-310.4496043107
 10
688.3508176488
 20
-316.8681941865
 10
685.7378078716
 20
-323.2660639908
 10
682.9153598673
 20
-329.6270590692
 10
679.8906017219
 20
-335.9351099888
 10
676.6711725515
 20
-342.174284248
 10
673.2652014297
 20
-348.3288227766
 10
669.6813021185
 20
-354.383167312
 10
665.9285203853
 20
-360.322033399
 10
662.016339271
 20
-366.1304195154
 10
657.9546369433
 20
-371.7936496543
 10
653.7536814281
 20
-377.2974189514
 10
649.4240779262
 20
-382.6278240982
 10
644.9767635448
 20
-387.7714028859
 10
640.4229756873
 20
-392.7151585374
 10
635.7742178092
 20
-397.4466038103
 10
631.0422330762
 20
-401.9537883718
 10
626.2389701198
 20
-406.2253246508
 10
621.3765685496
 20
-410.2504205365
 10
616.4673075863
 20
-414.0189211994
 10
611.5235895987
 20
-417.5212820926
 10
606.5579022371
 20
-420.7486759841
 10
601.5827901157
 20
-423.6929484667
 10
596.6108202395
 20
-426.3466622519
 10
591.6545530278
 20
-428.7031017298
 10
586.7265064238
 20
-430.7563180232
 10
581.8391315287
 20
-432.5011430538
 10
577.0047734178
 20
-433.9331391583
 10
572.2356441404
 20
-435.0487120139
 10
567.5437884755
 20
-435.8450452358
 10
562.9410628585
 20
-436.3201003751
 10
558.4390892829
 20
-436.4727165349
 10
554.0492473978
 20
-436.302468924
 10
549.7826165559
 20
-435.8098179014
 10
545.6499863505
 20
-434.9959873039
 10
541.9893587016
 20
-433.9698980078
  0
ARC
  5
EC
330
1F
100
AcDbEntity
  8
0
  6
Continuous
 62
     1
370
    25
100
AcDbCircle
 10
707.4285984468
 20
-369.0534821258
 30
0.0
 40
187.2631278814274
100
AcDbArc
 50
131.4808926149
 51
168.5244848936
  0
LWPOLYLINE
  5
ED
330
1F
100
AcDbEntity
  8
0
  6
Continuous
 62
     1
370
    25
100
AcDbPolyline
 90
       53
 70
   128
 43
0.0
 10
689.4695346197
 20
-203.1709217076
 10
690.9868949231
 20
-205.5509357462
 10
693.1612403011
 20
-209.4620087846
 10
695.1080453807
 20
-213.6240679796
 10
696.822400054
 20
-218.0265941478
 10
698.2999631956
 20
-222.658474998
 10
699.5370153463
 20
-227.5080020947
 10
700.5304376391
 20
-232.5629195251
 10
701.2777012632
 20
-237.8104725684
 10
701.7769306838
 20
-243.2373947734
 10
702.0268614955
 20
-248.8299813395
 10
702.0268614955
 20
-254.5741050883
 10
701.7769306838
 20
-260.4552556274
 10
701.2777012632
 20
-266.4585758525
 10
700.5304376391
 20
-272.5689011115
 10
699.5370153463
 20
-278.770799507
 10
698.2999631956
 20
-285.0485966152
 10
696.822400054
 20
-291.3864355565
 10
695.1080453807
 20
-297.7683134988
 10
693.1612403011
 20
-304.1781059944
 10
690.9868949231
 20
-310.5996247698
 10
688.5905146788
 20
-317.0166390219
 10
685.978147641
 20
-323.4129453747
 10
683.1563897914
 20
-329.7723861317
 10
680.1323692158
 20
-336.07889186
 10
676.9137250306
 20
-342.3165422252
 10
673.5085915773
 20
-348.4695690322
 10
669.9255668132
 20
-354.5224353098
 10
666.173701774
 20
-360.4598535614
 10
662.2624795005
 20
-366.2668161813
 10
658.2017728921
 20
-371.9286562875
 10
654.0018447063
 20
-377.4310781407
 10
649.673300144
 20
-382.7601845162
 10
645.2270736781
 20
-387.9025025586
 10
640.6744000779
 20
-392.8450552623
 10
636.0267801647
 20
-397.5753447384
 10
631.2959518359
 20
-402.0814236953
 10
626.4938663571
 20
-406.3519152088
 10
621.6326528011
 20
-410.3760210834
 10
616.724593023
 20
-414.143597136
 10
611.7820841232
 20
-417.6451018615
 10
606.8176124347
 20
-420.871708788
 10
601.8437173859
 20
-423.8152543348
 10
596.8729644176
 20
-426.4683142836
 10
591.9179089278
 20
-428.8241880908
 10
586.9910687774
 20
-430.8769025918
 10
582.1048897991
 20
-432.62129275
 10
577.271713117
 20
-434.0529475174
 10
572.5037507805
 20
-435.1682482368
 10
567.8130436172
 20
-435.9643808043
 10
563.2114454284
 20
-436.439320459
 10
558.7105755734
 20
-436.5918956574
 10
554.819905157
 20
-436.4576465289
  0
LWPOLYLINE
  5
EE
330
1F
100
AcDbEntity
  8
0
  6
Continuous
 62
     1
370
    25
100
AcDbPolyline
 90
       52
 70
   128
 43
0.0
 10
735.2570963936
 20
-245.0946124065
 10
735.5697680577
 20
-245.5220431833
 10
737.8506343269
 20
-248.9602551819
 10
739.9091180183
 20
-252.6602858545
 10
741.7393817934
 20
-256.611649391
 10
743.3362415898
 20
-260.8031421657
 10
744.6951666212
 20
-265.2228883649
 10
745.8123057195
 20
-269.8583536779
 10
746.6844926026
 20
-274.6964015715
 10
747.3092511431
 20
-279.7233206676
 10
747.6848217102
 20
-284.9248544032
 10
747.8101295592
 20
-290.2862641462
 10
747.6848217102
 20
-295.792351252
 10
747.3092511431
 20
-301.4275095344
 10
746.6844926026
 20
-307.1757594875
 10
745.8123057195
 20
-313.0208129216
 10
744.6951666212
 20
-318.9460995828
 10
743.3362415898
 20
-324.9348272267
 10
741.7393817934
 20
-330.9700150781
 10
739.9091180183
 20
-337.0345561891
 10
737.8506343269
 20
-343.1112615428
 10
735.5697680577
 20
-349.1829056817
 10
733.0729834835
 20
-355.232278416
 10
730.3673560067
 20
-361.2422304507
 10
727.4605563535
 20
-367.1957281367
 10
724.3608295013
 20
-373.0758930133
 10
721.0769525312
 20
-378.8660626412
 10
717.6182398968
 20
-384.549811896
 10
713.9944960087
 20
-390.1110472611
 10
710.2159888928
 20
-395.5339916158
 10
706.2934343855
 20
-400.8032724479
 10
702.2379460837
 20
-405.9039629135
 10
698.0610221747
 20
-410.8216016084
 10
693.7745032887
 20
-415.5422412333
 10
689.3905382547
 20
-420.0525109486
 10
684.9215551248
 20
-424.339614851
 10
680.3802216611
 20
-428.3914156204
 10
675.7794097744
 20
-432.1964124635
 10
671.1321625974
 20
-435.7438270425
 10
666.4516523374
 20
-439.0236034719
 10
661.7511466904
 20
-442.0264459574
 10
657.043969329
 20
-444.7438416067
 10
652.343463682
 20
-447.1680874224
 10
647.662953422
 20
-449.2923131119
 10
643.015706245
 20
-451.1104959134
 10
638.4148943583
 20
-452.6174834059
 10
633.8735608946
 20
-453.8089946467
 10
629.4045777646
 20
-454.6816688372
 10
625.0206127307
 20
-455.2330174105
 10
620.7340938447
 20
-455.4614871467
 10
616.5571699357
 20
-455.3664221458
 10
614.027618821
 20
-455.1450741208
  0
ARC
  5
EF
330
1F
100
AcDbEntity
  8
0
  6
Continuous
 62
     1
370
    25
100
AcDbCircle
 10
708.3393293182
 20
-369.5792413756
 30
0.0
 40
187.5091741543236
100
AcDbArc
 50
131.8827540285
 51
168.1226215705
  0
LWPOLYLINE
  5
F0
330
1F
100
AcDbEntity
  8
0
  6
Continuous
 62
     1
370
    25
100
AcDbPolyline
 90
       57
 70
   128
 43
0.0
 10
728.8263802972
 20
-238.0000747782
 10
730.6085387131
 20
-239.6476540578
 10
733.3134233518
 20
-242.5329671915
 10
735.8095230396
 20
-245.6987437833
 10
738.0897623745
 20
-249.1360157909
 10
740.1476823518
 20
-252.835033474
 10
741.977445633
 20
-256.7853140644
 10
743.5738681558
 20
-260.9756569782
 10
744.932419134
 20
-265.3941924854
 10
746.0492526677
 20
-270.0283877966
 10
746.9211972064
 20
-274.8651124621
 10
747.5457924279
 20
-279.8906505423
 10
747.9212576278
 20
-285.0907603013
 10
748.0465285983
 20
-290.4507027276
 10
747.9212576278
 20
-295.9552799378
 10
747.5457924279
 20
-301.5888925893
 10
746.9211972064
 20
-307.3355729622
 10
746.0492526677
 20
-313.1790233634
 10
744.932419134
 20
-319.1026872255
 10
743.5738681558
 20
-325.0897723045
 10
741.977445633
 20
-331.1233054297
 10
740.1476823518
 20
-337.1861857367
 10
738.0897623745
 20
-343.2612272505
 10
735.8095230396
 20
-349.3312075554
 10
733.3134233518
 20
-355.3789195031
 10
730.6085387131
 20
-361.3872259658
 10
727.7025345817
 20
-367.3390963358
 10
724.6036559348
 20
-373.2176460688
 10
721.3206798536
 20
-379.0062248929
 10
717.8629155233
 20
-384.6884228924
 10
714.2401620861
 20
-390.2481313409
 10
710.4626928364
 20
-395.6695883276
 10
706.5412078053
 20
-400.9374365479
 10
702.4868311267
 20
-406.0367248243
 10
698.3110530852
 20
-410.9530145656
 10
694.0257064084
 20
-415.6723630345
 10
689.6429425596
 20
-420.1813978708
 10
685.1751843224
 20
-424.4673262125
 10
680.6350955078
 20
-428.5180130205
 10
676.0355453924
 20
-432.3219711897
 10
671.3895705235
 20
-435.8684140165
 10
666.7103431081
 20
-439.1472916991
 10
662.0111249156
 20
-442.1493118648
 10
657.3052369844
 20
-444.865963142
 10
652.6060187919
 20
-447.2895448141
 10
647.9267913765
 20
-449.4131881094
 10
643.2808165076
 20
-451.2308736876
 10
638.6812663922
 20
-452.7374430439
 10
634.1411775776
 20
-453.9286312048
 10
629.6734193404
 20
-454.8010667248
 10
625.2906554916
 20
-455.3522633183
 10
621.0053088148
 20
-455.5806708065
 10
616.8295307733
 20
-455.4856317688
 10
612.7751540947
 20
-455.0674271658
 10
608.8536690636
 20
-454.3272291887
 10
605.0761998139
 20
-453.2671453632
 10
605.0607740673
 20
-453.2620640237
  0
ENDSEC
  0
SECTION
  2
OBJECTS
  0
DICTIONARY
  5
C
330
0
100
AcDbDictionary
281
     1
  3
ACAD_GROUP
350
D
  3
ACAD_LAYOUT
350
1A
  3
ACAD_MLINESTYLE
350
17
  3
ACAD_PLOTSETTINGS
350
19
  3
ACAD_PLOTSTYLENAME
350
E
  3
ACAD_SCALELIST
350
47
  0
DICTIONARY
  5
D
102
{ACAD_REACTORS
330
C
102
}
330
C
100
AcDbDictionary
281
     1
  0
DICTIONARY
  5
1A
102
{ACAD_REACTORS
330
C
102
}
330
C
100
AcDbDictionary
281
     1
  3
Layout1
350
1E
  3
Layout2
350
26
  3
Model
350
22
  0
DICTIONARY
  5
17
102
{ACAD_REACTORS
330
C
102
}
330
C
100
AcDbDictionary
281
     1
  3
Standard
350
18
  0
DICTIONARY
  5
19
102
{ACAD_REACTORS
330
C
102
}
330
C
100
AcDbDictionary
281
     1
  0
ACDBDICTIONARYWDFLT
  5
E
102
{ACAD_REACTORS
330
C
102
}
330
C
100
AcDbDictionary
281
     1
  3
Normal
350
F
100
AcDbDictionaryWithDefault
340
F
  0
DICTIONARY
  5
47
102
{ACAD_REACTORS
330
C
102
}
330
C
100
AcDbDictionary
281
     1
  3
A0
350
48
  3
A1
350
49
  3
A2
350
4A
  3
A3
350
4B
  3
A4
350
4C
  3
A5
350
4D
  3
A6
350
4E
  3
A7
350
4F
  3
A8
350
50
  3
A9
350
51
  3
B0
350
52
  3
B1
350
53
  3
B2
350
54
  3
B3
350
55
  3
B4
350
56
  3
B5
350
57
  3
B6
350
58
  3
B7
350
59
  3
B8
350
5A
  3
B9
350
5B
  3
C0
350
5C
  3
C1
350
5D
  3
C2
350
5E
  3
C3
350
5F
  3
C4
350
60
  3
C5
350
61
  3
C6
350
62
  3
C7
350
63
  3
C8
350
64
  3
C9
350
65
  3
D0
350
66
  3
D1
350
67
  3
D2
350
68
  0
LAYOUT
  5
1E
102
{ACAD_REACTORS
330
1A
102
}
330
1A
100
AcDbPlotSettings
  1

  2
none_device
  4

  6

 40
0.0
 41
0.0
 42
0.0
 43
0.0
 44
0.0
 45
0.0
 46
0.0
 47
0.0
 48
0.0
 49
0.0
140
0.0
141
0.0
142
1.0
143
1.0
 70
   688
 72
     1
 73
     0
 74
     5
  7

 75
    16
147
1.0
148
0.0
149
0.0
100
AcDbLayout
  1
Layout1
 70
     1
 71
     1
 10
0.0
 20
0.0
 11
420.0
 21
297.0
 12
0.0
 22
0.0
 32
0.0
 14
1.0000000000E+20
 24
1.0000000000E+20
 34
1.0000000000E+20
 15
-1.0000000000E+20
 25
-1.0000000000E+20
 35
-1.0000000000E+20
146
0.0
 13
0.0
 23
0.0
 33
0.0
 16
1.0
 26
0.0
 36
0.0
 17
0.0
 27
1.0
 37
0.0
 76
     0
330
1B
  0
LAYOUT
  5
26
102
{ACAD_REACTORS
330
1A
102
}
330
1A
100
AcDbPlotSettings
  1

  2
none_device
  4

  6

 40
0.0
 41
0.0
 42
0.0
 43
0.0
 44
0.0
 45
0.0
 46
0.0
 47
0.0
 48
0.0
 49
0.0
140
0.0
141
0.0
142
1.0
143
1.0
 70
   688
 72
     1
 73
     0
 74
     5
  7

 75
    16
147
1.0
148
0.0
149
0.0
100
AcDbLayout
  1
Layout2
 70
     1
 71
     2
 10
0.0
 20
0.0
 11
0.0
 21
0.0
 12
0.0
 22
0.0
 32
0.0
 14
0.0
 24
0.0
 34
0.0
 15
0.0
 25
0.0
 35
0.0
146
0.0
 13
0.0
 23
0.0
 33
0.0
 16
1.0
 26
0.0
 36
0.0
 17
0.0
 27
1.0
 37
0.0
 76
     0
330
23
  0
LAYOUT
  5
22
102
{ACAD_REACTORS
330
1A
102
}
330
1A
100
AcDbPlotSettings
  1

  2
none_device
  4
Letter_(8.50_x_11.00_Inches)
  6

 40
6.35
 41
6.35
 42
6.35000508
 43
6.35000508
 44
215.9
 45
279.4
 46
0.0
 47
0.0
 48
0.0
 49
0.0
140
0.0
141
0.0
142
1.0
143
1.0
 70
  1712
 72
     1
 73
     0
 74
     0
  7

 75
     0
147
1.0
148
0.0
149
0.0
100
AcDbLayout
  1
Model
 70
     1
 71
     0
 10
0.0
 20
0.0
 11
279.4
 21
215.9
 12
0.0
 22
0.0
 32
0.0
 14
0.0
 24
0.0
 34
0.0
 15
279.4
 25
215.9
 35
0.0
146
0.0
 13
0.0
 23
0.0
 33
0.0
 16
1.0
 26
0.0
 36
0.0
 17
0.0
 27
1.0
 37
0.0
 76
     0
330
1F
331
29
  0
MLINESTYLE
  5
18
102
{ACAD_REACTORS
330
17
102
}
330
17
100
AcDbMlineStyle
  2
Standard
 70
     0
  3

 62
   256
 51
90.0
 52
90.0
 71
     2
 49
0.5
 62
   256
  6
BYLAYER
 49
-0.5
 62
   256
  6
BYLAYER
  0
ACDBPLACEHOLDER
  5
F
102
{ACAD_REACTORS
330
E
102
}
330
E
  0
SCALE
  5
48
102
{ACAD_REACTORS
330
47
102
}
330
47
100
AcDbScale
 70
     0
300
1:1
140
1.0
141
1.0
290
     1
  0
SCALE
  5
49
102
{ACAD_REACTORS
330
47
102
}
330
47
100
AcDbScale
 70
     0
300
1:2
140
1.0
141
2.0
290
     0
  0
SCALE
  5
4A
102
{ACAD_REACTORS
330
47
102
}
330
47
100
AcDbScale
 70
     0
300
1:4
140
1.0
141
4.0
290
     0
  0
SCALE
  5
4B
102
{ACAD_REACTORS
330
47
102
}
330
47
100
AcDbScale
 70
     0
300
1:5
140
1.0
141
5.0
290
     0
  0
SCALE
  5
4C
102
{ACAD_REACTORS
330
47
102
}
330
47
100
AcDbScale
 70
     0
300
1:8
140
1.0
141
8.0
290
     0
  0
SCALE
  5
4D
102
{ACAD_REACTORS
330
47
102
}
330
47
100
AcDbScale
 70
     0
300
1:10
140
1.0
141
10.0
290
     0
  0
SCALE
  5
4E
102
{ACAD_REACTORS
330
47
102
}
330
47
100
AcDbScale
 70
     0
300
1:16
140
1.0
141
16.0
290
     0
  0
SCALE
  5
4F
102
{ACAD_REACTORS
330
47
102
}
330
47
100
AcDbScale
 70
     0
300
1:20
140
1.0
141
20.0
290
     0
  0
SCALE
  5
50
102
{ACAD_REACTORS
330
47
102
}
330
47
100
AcDbScale
 70
     0
300
1:30
140
1.0
141
30.0
290
     0
  0
SCALE
  5
51
102
{ACAD_REACTORS
330
47
102
}
330
47
100
AcDbScale
 70
     0
300
1:40
140
1.0
141
40.0
290
     0
  0
SCALE
  5
52
102
{ACAD_REACTORS
330
47
102
}
330
47
100
AcDbScale
 70
     0
300
1:50
140
1.0
141
50.0
290
     0
  0
SCALE
  5
53
102
{ACAD_REACTORS
330
47
102
}
330
47
100
AcDbScale
 70
     0
300
1:100
140
1.0
141
100.0
290
     0
  0
SCALE
  5
54
102
{ACAD_REACTORS
330
47
102
}
330
47
100
AcDbScale
 70
     0
300
2:1
140
2.0
141
1.0
290
     0
  0
SCALE
  5
55
102
{ACAD_REACTORS
330
47
102
}
330
47
100
AcDbScale
 70
     0
300
4:1
140
4.0
141
1.0
290
     0
  0
SCALE
  5
56
102
{ACAD_REACTORS
330
47
102
}
330
47
100
AcDbScale
 70
     0
300
8:1
140
8.0
141
1.0
290
     0
  0
SCALE
  5
57
102
{ACAD_REACTORS
330
47
102
}
330
47
100
AcDbScale
 70
     0
300
10:1
140
10.0
141
1.0
290
     0
  0
SCALE
  5
58
102
{ACAD_REACTORS
330
47
102
}
330
47
100
AcDbScale
 70
     0
300
100:1
140
100.0
141
1.0
290
     0
  0
SCALE
  5
59
102
{ACAD_REACTORS
330
47
102
}
330
47
100
AcDbScale
 70
     0
300
1/128" = 1'-0"
140
0.0078125
141
12.0
290
     0
  0
SCALE
  5
5A
102
{ACAD_REACTORS
330
47
102
}
330
47
100
AcDbScale
 70
     0
300
1/64" = 1'-0"
140
0.015625
141
12.0
290
     0
  0
SCALE
  5
5B
102
{ACAD_REACTORS
330
47
102
}
330
47
100
AcDbScale
 70
     0
300
1/32" = 1'-0"
140
0.03125
141
12.0
290
     0
  0
SCALE
  5
5C
102
{ACAD_REACTORS
330
47
102
}
330
47
100
AcDbScale
 70
     0
300
1/16" = 1'-0"
140
0.0625
141
12.0
290
     0
  0
SCALE
  5
5D
102
{ACAD_REACTORS
330
47
102
}
330
47
100
AcDbScale
 70
     0
300
3/32" = 1'-0"
140
0.09375
141
12.0
290
     0
  0
SCALE
  5
5E
102
{ACAD_REACTORS
330
47
102
}
330
47
100
AcDbScale
 70
     0
300
1/8" = 1'-0"
140
0.125
141
12.0
290
     0
  0
SCALE
  5
5F
102
{ACAD_REACTORS
330
47
102
}
330
47
100
AcDbScale
 70
     0
300
3/16" = 1'-0"
140
0.1875
141
12.0
290
     0
  0
SCALE
  5
60
102
{ACAD_REACTORS
330
47
102
}
330
47
100
AcDbScale
 70
     0
300
1/4" = 1'-0"
140
0.25
141
12.0
290
     0
  0
SCALE
  5
61
102
{ACAD_REACTORS
330
47
102
}
330
47
100
AcDbScale
 70
     0
300
3/8" = 1'-0"
140
0.375
141
12.0
290
     0
  0
SCALE
  5
62
102
{ACAD_REACTORS
330
47
102
}
330
47
100
AcDbScale
 70
     0
300
1/2" = 1'-0"
140
0.5
141
12.0
290
     0
  0
SCALE
  5
63
102
{ACAD_REACTORS
330
47
102
}
330
47
100
AcDbScale
 70
     0
300
3/4" = 1'-0"
140
0.75
141
12.0
290
     0
  0
SCALE
  5
64
102
{ACAD_REACTORS
330
47
102
}
330
47
100
AcDbScale
 70
     0
300
1" = 1'-0"
140
1.0
141
12.0
290
     0
  0
SCALE
  5
65
102
{ACAD_REACTORS
330
47
102
}
330
47
100
AcDbScale
 70
     0
300
1-1/2" = 1'-0"
140
1.5
141
12.0
290
     0
  0
SCALE
  5
66
102
{ACAD_REACTORS
330
47
102
}
330
47
100
AcDbScale
 70
     0
300
3" = 1'-0"
140
3.0
141
12.0
290
     0
  0
SCALE
  5
67
102
{ACAD_REACTORS
330
47
102
}
330
47
100
AcDbScale
 70
     0
300
6" = 1'-0"
140
6.0
141
12.0
290
     0
  0
SCALE
  5
68
102
{ACAD_REACTORS
330
47
102
}
330
47
100
AcDbScale
 70
     0
300
1'-0" = 1'-0"
140
12.0
141
12.0
290
     0
  0
ENDSEC
  0
EOF
